На главную   Содержание   Следующая
 
КинО "45" 1982 год
 
1. Время есть, а денег нет

2. Просто хочешь ты знать

3. Алюминиевые огурцы

4. Солнечные дни

5. Бездельник #1

6. Бездельник #2

7. Электричка

8. Восьмиклассница

9. Мои друзья

10. Ситар играл

11. Дерево

12. Когда-то ты был битником

13. На кухне

14. Я - асфальт


1. ВРЕМЯ ЕСТЬ, А ДЕНЕГ НЕТ


Встyпление:

e|-5-0-0-0-2-0-3-0-7-------
b|-5-0-1-0-3-0-1-0-5-------
g|-5-0-2-0-2-0-0-0-5-------
d|-----2-------------------


Fm#
Дождь идёт с утра, будет, был и есть.
Hm D Fm#
И карман мой пуст, на часах - шесть.
Fm#
И огня нет, и курить нет,
Hm D Fm
И в окне знакомом не горит свет.

D
Время есть, а денег нет,
Fm#
И в гости некуда пойти.

И куда-то все подевались вдруг.
Я попал в какой-то не такой круг.
Я хочу пить, я хочу есть,
Я хочу просто где-нибудь сесть.


2. ПРОСТО ХОЧЕШЬ ТЫ ЗНАТЬ


A Dm D Hm
Идёшь по улице один.
E A
Идёшь к кому-то из друзей.
Dm D Hm
Заходишь в гости без причин
E A C# F#
И просишь свежих новостей.

H
Просто хочешь ты знать,
Dm D A C# F#
Где и что происходит.
H
Просто хочешь ты знать,
Dm D A
Где и что происходит. /A H E/

Звонишь по телефону всем.
Кого-то нет, а кто-то здесь.
Для разговоров много тем,
Для разговоров время есть.

Узнал, что где-то пьют вино,
А где-то музыка слышна.
Тебя зовут туда, где пьют,
И ты берёшь ещё вина.

Там кто-то спор ведёт крутой,
А кто-то просо спит давно,
И с кем-то рядом ты сидишь,
И с кем-то рядом пьёшь вино.


3. АЛЮМИНИЕВЫЕ ОГУРЦЫ


Вступление
е -1-0-----------------------
b -----3-1-0-----------------
g ------------2-0------------
d ----------------3-2-0-0----
a -------------------------3-

D Hm
Здравствуйте, девочки,
G A
Здравствуйте, мальчики,
D Hm
Смотрите на меня в окно
G A
И мне кидайте свои пальчики, да-а
Ведь я

D Hm G
Сажаю алюминиевые огурцы, а-а Г 2 раза
A │
На брезентовом поле Щ

Три чукотских мудреца
Твердят, твердят мне без конца:
"Металл не принесёт плода,
Игра не стоит свеч, а результат - труда",
Но я

Сажаю алюминиевые огурцы, а-а Г 2 раза
На брезентовом поле Щ

Злое белое колено
Пытается меня достать,
Колом колено колет вены
В надежд тайну разгадать,
Зачем я

Сажаю алюминиевые огурцы, а-а Г 2 раза
На брезентовом поле Щ

Кнопки, скрепки, клёпки,
Дырки, булки, вилки,
Здесь тракторы пройдут мои
И упадут в копилку, упадут туда,
Где я

Сажаю алюминиевые огурцы, а-а Г 2 раза
На брезентовом поле Щ


4. СОЛНЕЧНЫЕ ДНИ


Fm# Hm Cm#
Белая гадость лежит под окном,
Fm# Hm Cm#
Я ношу шапку и шерстяные носки.
Fm# Hm Cm#
Мне везде неуютно, и пиво пить в лом.
E D Cm#
Как мне избавиться от этой тоски
Fm# Hm Cm#
По вам, солнечные дни?
Fm# Hm Cm#
Солнечные дни.
Fm# Hm Cm#
Солнечные дни. /E D C#/

Мёрзнут руки и ноги, и негде сесть.
Это время похоже на сплошную ночь.
Хочется в теплую ванну залезть,
Может быть, это избавит меня от тоски
По вам, солнечные дни?
Солнечные дни.
Солнечные дни.

Я раздавлен зимой, я болею и сплю,
И порой я уверен, что зима навсегда,
Ещё так долго до лета, а я еле терплю,
Но, может быть, эта песня избавит меня от тоски
По вам, солнечные дни?
Солнечные дни.
Солнечные дни.


5. БЕЗДЕЛЬНИК #1


Встyпление.

Тyт встyпaет втоpaя гитapa нa октaвy выше.

|--------------1^3^1-0---5-3-------||--------------1^3^1-0---5-3----------
|----1-0-1-0-1---------3-----6-5-3-||----1-0-1-0-1---------3-----6-5-3----
|----2-0-2-0-2---------------------||----2-0-2-0-2------------------------
|----------------------------------||-------------------------------------
|-0--------------------------------||-0-----------------------------------
|----------------------------------||-------------------------------------


Дaлее пapтии чyть-чyть paзличaются.


|---5-3-5-----------5-3-5--------3---|---5-3-5-----------5-3-5--------3---|
|-----------5-3-5--------------3---3-|-----------5-3-5--------------3---3-|
|----------------------------0-------|----------------------------0-------|
|------------------------------------|------------------------------------|
|-0-------0-------0------------------|-0-------0-------0------------------|
|------------------------------------|------------------------------------|
| | |
| Здесь ничего не пеpепyтaно! | |
| Они действительно игpaют paзное. | |
|----------17-15-17------------------|---17-15-17-------17-15-17--15-15---|
|--17-15-17--------17-15-17--15-15---|-----------17-15-17-----------------|
|------------------------------------|------------------------------------|
|------------------------------------|------------------------------------|
|------------------------------------|------------------------------------|
|------------------------------------|------------------------------------|



Am Em Am G
Нет меня дома целыми днями:
C G F G
Занят безделье, играю словами
Am Em Am G
Каждое утро снова жизнь свою начинаю
C G F G
И ни черта ни в чём не понимаю.

C Fm C
Я, лишь начнётся новый день,
C G F
Хожу, отбрасываю тень
G
С лицом нахала.
C Fm C
Наступит вечер, я опять
C G F
Отправлюсь спать, чтоб завтра встать
G
И всё сначала.

Ноги уносят мои руки и туловище,
И голова отправляется следом.
Словно с похмелья, шагаю по улице я,
Мозг переполнен сумбуром и бредом.

Все говорят, что надо кем-то мне становиться,
А я хотел бы остаться собой.
Мне стало трудно теперь просто разозлиться.
И я иду, поглощённый толпой.


6. БЕЗДЕЛЬНИК #2


Intro
Repeat 3 times
1-2-2-2--2--2-2--2-2--2-2-2--2-2--0----0--0--0-0------------------------
2-3-3-3--3--5-3--5-3--5-3-3--5-3--2----2--3--3-2------------------------
3-2-2-2--2--2-2--2-2--2-2-2--2-2--2----2--2--2-2------------------------
4-4-4-4--4--4-4--4-4--4-4-4--4-4--2----2--2--2-2------------------------
5-2-2-2--2--2-2--2-2--2-2-2--2-2--0----0--0--0-0------------------------
6-----------------------------------------------------------------------

1-2-2-2--2--2-2--2-2--2-2-2--2-2---/5--3--0^3---------------------------
2-3-3-3--3--5-3--5-3--5-3-3--5-3---/5--3--0^3--3/5-3--------------------
3-2-2-2--2--2-2--2-2--2-2-2--2-2---------------2/4-2--------------------
4-4-4-4--4--4-4--4-4--4-4-4--4-4----------------------------------------
5-2-2-2--2--2-2--2-2--2-2-2--2-2----------------------------------------
6-----------------------------------------------------------------------


Hm A
Гуляю.
D A
Я один гуляю.
Hm A Cm# Fm#
Что дальше делать, я не знаю.
Hm A
Нет дома.
D A
Никого нет дома.
Hm A Cm# Fm# Cm# Fm#
Я лишний, словно куча лома, у-у.

Hm A
Я бездельник, о-о, мама, мама,
Cm# Fm#
Я бездельник, у-у...
Hm A
Я бездельник, о-о, мама, мама. /Hm A/

В толпе я
Как иголка в сене.
Я снова человек без цели.
Болтаюсь,
Целый день гуляю.
Не знаю, я ничего не знаю, у-у.


7. ЭЛЕКТРИЧКА


Em C Em C Em C Em C
Я вчера слишком поздно лёг, сегодня рано встал,
Я вчера слишком поздно лёг, я почти не спал.
Мне, наверно, с утра нужно было пойти к врачу,
А теперь электричка везёт меня туда, куда я не хочу.

Em C Em C Em C Em C
Электричка везёт меня туда, куда я не хочу (2 раза).

В тамбуре холодно, и в то же время как-то тепло,
В тамбуре накурено, и в то же время как-то свежо.
Почему я молчу, почему не кричу? Молчу.

Электричка везёт меня туда, куда я не хочу (3 раза).


8. ВОСЬМИКЛАССНИЦА


Подклaдкa под пpоигpыш.

- natural harmonic.

e|--<5>---------------<12>---<5>---------------<5>------------------|
b|-----<5>----<5>---------------<5>----<5>-<5>----------------------|
g|--------<5>----------------------<5>------------------------------|

Соло.

e|---------------------------0--------------------------------------|
b|----0-1-0--------------------3-1--0---1-------0-1-0---------------|
g|--2----------2/4-----2----------------------2----------2/4----2---|
d|------------------------------------------------------------------|
a|------------------------------------------------------------------|
E|------------------------------------------------------------------|


e|------------------------------------------------------------------|
b|------0-----0-1---------------------------------------------------|
g|--0-2-----2-------------------------------------------------------|
d|------------------------------------------------------------------|
a|------------------------------------------------------------------|
E|------------------------------------------------------------------|


Am Em
Пустынной улицей вдвоём
C G
С тобой куда-то мы идём,
F G C Am
И я курю, а ты конфеты ешь.
Am Em
И светят фонари давно,
C G
Ты говоришь: "Пойдём в кино",
F G C Am
А я тебя зову в кабак, конечно.

F G C Am
У-у, восьмиклассница,
F G
У-у... /Am Em/

Ты говоришь, что у тебя по географии трояк,
А мне на это просто наплевать.
Ты говоришь, из-за тебя там кто-то получил синяк,
Многозначительно молчу, и дальше мы идём гулять.

Мамина помада, сапоги старшей сестры.
Мне легко с тобой, а ты гордишься мной,
Ты любишь своих кукол и воздушные шары.
Но в 10 ровно мама ждёт тебя домой.


9. МОИ ДРУЗЬЯ


A D+1 Cm# Fm#
Пришёл домой и, как всегда, опять один.
A D+1
Мой дом пустой, но зазвонит вдруг телефон,
Hm D A D+1
И будут в дверь стучать и с улицы кричать,
A Dm Cm# Dm Cm#
Что хватит спать. И пьяный голос скажет: "Дай пожрать."

E Fm#
Мои друзья всегда идут по жизни маршем,
E Cm# Hm Fm#
И остановки только у пивных ларьков.

Мой дом был пуст, теперь народу там полно,
В который раз мои друзья там пьют вино.
И кто-то занял туалет уже давно, разбив окно,
А мне уже, признаться, всё равно.

А я смеюсь, хоть мне и не всегда смешно,
И очень злюсь, когда мне говорят,
Что жить вот так, как я сейчас, нельзя.
Но почему? Ведь я живу.
На это не ответить никому.


10. СИТАР ИГРАЛ


D A Hm D
Ситар играл.

G A D
Джордж Харрисон, который очень любит деньги,
G A D
Послушал мантры и заторчал.
G A G
Купил билет на пароход и уехал в Дели.
D
И в ушах его всё время
A Hm
Ситар играл.

Кто на нём играл? Чей это ситар?
На ситаре играл сам Рави Шанкар.
Он сидел в позе "Лотос" на спине у слона
С ситаром в руках.

Джордж Харрисон купил пар двенадцать бус,
Джордж Харрисон сказал: "Я буду жить любя",
А потом он сказал: "Гуд бай" и ушёл в себя.
Ситар играл.


11. ДЕРЕВО


Dm Am Dm Am
Я знаю - моё дерево не проживёт и недели
Dm Am Dm Am
Я знаю - моё дерево в этом городе обречено,
Dm Am
Но я всё своё время провожу рядом с ним.
Dm Am
Мне все другие дела надоели.
Dm Am
Мне кажется, что это мой дом.
Dm Am
Мне кажется, что это мой друг.
D Am
Я посадил дерево.
Dm Am
Я посадил дерево.

Я знаю - моё дерево, может, завтра сломает школьник
Я знаю - моё дерево скоро оставит меня.
Но, пока оно есть, я всегда рядом с ним.
Мне с ним радостно, мне с ним больно.
Мне кажется, что это мой мир.
Мне кажется, что это мой сын.
Я посадил дерево.
Я посадил дерево.


12. КОГДА-ТО ТЫ БЫЛ БИТНИКОМ


F# A F# A
Эй, где твои туфли на манной каше,
H F# A
И куда ты засунул свой двубортный пиджак?
F# A F# A
Спрячь подальше домашние тапки, папаша,
C# H
Ты ведь раньше не дал бы за них и пятак.

F# A F# A
А когда-то ты был битником, у-у-у.
H
Когда-то ты, ты был когда-то битником.

Ты готов был отдать душу за рок-н-ролл,
Извлечённый из снимка чужой диафрагмы.
А теперь - телевизор, газета, футбол,
И довольна тобой твоя старая мама.

Рок-н-ролльное время ушло безвозвратно,
Охладили седины твоей юности пыл.
Но я верю и верить мне в это приятно,
Что в душе ты остался таким же, как был.


13. НА КУХНЕ


A A-1
Ночь, день -
D Hm
Спать лень.
Fm# E
Есть дым -
Cm#
Чёрт с ним.
Сна нет -
Есть сон лет.
Кино -
Кончилось давно.
Мой дом,
Я в нём
Сижу -
Пень пнём.
Есть свет,
Сна нет.
Есть ночь -
Уже уходит прочь.
Стоит таз,
Горит газ.
Щелчок -
И газ погас.
Пора спать -
В кровать.
Вставать,
Завтра вставать.


14. Я - АСФАЛЬТ


(В альбом "45" песня не входит, хотя первоначально
была написана именно для этого альбома)
Fm Cm# Hm A Gm# Fm
Вечер наступает медленнее, чем всегда,
Утром ночь затухает, как звезда.
Я начинаю день и кончаю ночь,
24 круга прочь, 24 круга прочь,
Я - асфальт.

Я получил письмо от себя себе,
Я получил чистый лист, он зовёт к тебе.
Я не знаю, кто из вас мог бы мне помочь.
24 круга прочь, 24 круга прочь,
Я - асфальт.

Я свой сын, свой отец, свой друг, свой враг.
Я боюсь сделать этот последний шаг.
Уходи день, уходи, уходи в ночь.
24 круга прочь, 24 круга прочь,
Я - асфальт.

Прочь, я - асфальт.
Прочь.