Предыдущая   На главную   Содержание   Следующая
 
 
1. Перемен

2. Электричка

3. Война

4. Троллейбус

5. Печаль

6. Последний герой

7. Группа крови

8. Мама, мы все сошли с ума

9. В наших глазах

10. Спокойная ночь


1. ПЕРЕМЕН

Встyпление:

e|------------------------------------------------------------------
b|------------------------------------------------------------------
g|------------------------------------------------------------------
d|------------------------------------------------------------------
a|-5--------------5-5------------10-10-10-10-10-10-10-9-9-9-9-9-9-9-
e|-3-5-6-5-6-5--3-3-5-6-5-6-5--8--8--8--8--8---8--8--8-8-8-8-8-8-8--

e|------------------------------------------------------------------
b|------------------------------------------------------------------
g|------------------------------------------------------------------
d|------------------------------------------------------------------
a|-5--------------5-5------------10-10------------------10-10-------
e|-3-5-6-5-6-5--3-3-5-6-5-6-5-8--8--10-11-10-11-10-8--8-10-11-5-6---


Em
Вместо тепла - зелень стекла
G
Вместо огня - дым
D Em
Из сетки календаpя выхвачен день
Em
Кpасное солнце сгоpает дотла
G
День догоpает с ним
D
Hа пылающий гоpод падает тень


Am C D Em
Пеpемен тpебyют наши сеpдца
Пеpемен тpебyют наши глаза
В нашем смехе и в наших слезах и в пyльсации вен
Am D Em
Пеpемен! Мы ждем пеpемен!

Электpический свет пpодолжает наш день
И коpобка от спичек пyста
Hо на кyхне синим цветком гоpит газ
Сигаpеты в pyках чай на столе эта схема пpоста
И больше нет ничего все находится в нас

Пеpемен тpебyют наши сеpдца
Пеpемен тpебyют наши глаза
В нашем смехе и в наших слезах и в пyльсации вен
Пеpемен! Мы ждем пеpемен!

Мы не можем похвастаться мyдpостью глаз
И yмелыми жестами pyк
Hам не нyжно все это чтобы дpyг дpyга понять
Сигаpеты в pyках чай на столе так замыкается кpyг
И вдpyг нам становится стpашно что-то менять

Пеpемен тpебyют наши сеpдца
Пеpемен тpебyют наши глаза
В нашем смехе и в наших слезах и в пyльсации вен
Пеpемен! Мы ждем пеpемен!


2. ЭЛЕКТРИЧКА


Em C Em C Em C Em C
Я вчера слишком поздно лёг, сегодня рано встал,
Я вчера слишком поздно лёг, я почти не спал.
Мне, наверно, с утра нужно было пойти к врачу,
А теперь электричка везёт меня туда, куда я не хочу.

Em C Em C Em C Em C
Электричка везёт меня туда, куда я не хочу (2 раза).

В тамбуре холодно, и в то же время как-то тепло,
В тамбуре накурено, и в то же время как-то свежо.
Почему я молчу, почему не кричу? Молчу.

Электричка везёт меня туда, куда я не хочу (3 раза).


3. ВОЙНА


Am Dm Am
Покажи мне людей, уверенных в завтрашнем дне,
F E Am
Нарисуй мне портреты погибших на этом пути.
Am Dm Am
Покажи мне того, кто выжил один из полка,
F
Но кто-то должен стать дверью,
E Am Em G
А кто-то замком, а кто-то ключом от замка.

Am
Земля. Небо.
F G Am
Между Землей и Небом - Война!
Am
И где бы ты не был,
Что б ты не делал -
F G Am
Между Землей и Небом - Война!

Где-то есть люди, для которых есть день и есть ночь.
Где-то есть люди, у которых есть сын и есть дочь.
Где-то есть люди, для которых теорема верна.
Но кто-то станет стеной, а кто-то плечом,
Под которым дрогнет стена.

Земля. Небо.
Между Землей и Небом - Война!
И где бы ты не был,
Что б ты не делал -
Между Землей и Небом - Война!



4. ТРОЛЛЕЙБУС


Em Hm
Мое место слева, и я должен там сесть,
Am Em
Не пойму, почему мне так холодно здесь,
Em Hm
Я не знаком с соседом, хоть мы вместе уж год.
Am Em
И мы тонем, хотя каждый знает, где брод.
Am D G
И каждый с надеждой глядит в потолок
Am D G
Троллейбуса, который идет на восток.
Am D G
Троллейбуса, который идет на восток.
Am H7
Троллейбуса, который...

Все люди - братья, мы - седьмая вода,
И мы едем, не знаю, зачем и куда.
Мой сосед не может, он хочет уйти,
Но он не может уйти, он не знает пути,
И вот мы гадаем, какой может быть прок
В троллейбусе, который идет на восток.

В кабине нет шофера, но троллейбус идет,
И мотор заржавел, но мы едем вперед,
Мы сидим не дыша, смотрим туда,
Где на долю секунды показалась звезда,
Мы молчим, но мы знаем, нам в этом помог,
Троллейбус, который идет на восток.


5. ПЕЧАЛЬ


Hm A
На холодной земле стоит город большой.
G Fm#
Там горят фонари, и машины гудят.
Hm A
А над городом ночь, а над ночью луна,
G Fm#
И сегодня луна каплей крови красна.

A D
Дом стоит, свет горит,
A D
Из окна видна даль.
Hm A D
Так откуда взялась печаль?
И, вроде, жив и здоров,
И, вроде, жить не тужить.
Так откуда взялась печаль?

А вокруг благодать - ни черта не видать,
А вокруг красота - не видать ни черта.
И все кричат: "Ура!" И все бегут вперед,
И над этим всем новый день встает.

Дом стоит, свет горит,
Из окна видна даль.
Так откуда взялась печаль?
И, вроде, жив и здоров,
И, вроде, жить не тужить.
Так откуда взялась печаль?


6. ПОСЛЕДНИЙ ГЕРОЙ


Em Hm G D
Ночь коротка, цель далека,
Em Hm G D
Ночью так часто хочется пить,
Em Hm
Ты выходишь на кухню,
G D
Но вода здесь горька,
Em Hm
Ты не можешь здесь спать,
G D
Ты не хочешь здесь жить.

Em Hm G D
Доброе утро, последний герой!
Em Hm G D
Доброе утро тебе и таким, как ты,
Em Hm G D
Доброе утро, последний герой.
Em Hm Em
Здравствуй, последний герой! /Em G Hm/

Ты хотел быть один, это быстро прошло,
Ты хотел быть один, но не смог быть один,
Твоя ноша легка, но немеет рука,
И ты встречаешь рассвет за игрой в дурака.

Утром ты стремишься скорее уйти,
Телефонный звонок, как команда "Вперед!"
Ты уходишь туда, куда не хочешь идти,
Ты уходишь туда, но тебя там никто не ждет!


7. ГРУППА КРОВИ


Встyпление(бас):

F#m F#m - F#m F#m6 C#m C#m7-5 - -
A---------------------------------- --4-4----4-6-6----6-8-8----8-9-9--
E-2-2----0-2-2----5-2-2----0-2-5-4- 2---------------------------------

F#m7 F#m
F#m F#m7 F#m6 C#m C#m7-5

-2---2----2----4---4-----
-2---5----4----5---7-----
-2---2----2----6---4-----
-4---4----4----6---6-----
-4---4----4----4---4-----
-2---2----2----x---x-----

Соло:

F#m C#m F#m C#m F#m C#m F#m C#m
|------------------------9------9---|------------------------9-------9----|
|-----------------7-------10------9-|-----------------7--------10------9--|
|-----------4-6-----6---------------|-----------4-6-----6-----------------|
|-4---4-6-7-------------------------|-4---4-6-7---------------------------|
|-----------------------------------|-------------------------------------|
|-----------------------------------|-------------------------------------|

2 гитаpы:

F#m C#m F#m C#m F#m C#m F#m C#m
|-----------------------14-9---14-7-|------------------------14-9----14-7-|
|-----------------7-----14-10--14-9-|------------------7-----14-10---14-9-|
|-----------4-6---6-6---------------|------------4-6---6-6----------------|
|-4---4-6-7-6-7-----7---------------|--4---4-6-7-6-7-----7----------------|
|-5---5-8-9-------------------------|--5---5-8-9--------------------------|
|-----------------------------------|-------------------------------------|


Fm#
Теплое место, но улицы ждут
Cm#
Отпечатков наших ног.
Fm# E
Звездная пыль - на сапогах.
Fm#
Мягкое кресло, клетчатый плед,
Cm#
Не нажатый вовремя курок.
Fm# E
Солнечный день - в ослепительных снах.

Fm#
Группа крови - на рукаве,
Cm#
Мой порядковый номер - на рукаве,
Hm# E
Пожелай мне удачи в бою, пожелай мне:
Fm
Не остаться в этой траве,
Cm#
Не остаться в этой траве.
Hm# C7# Fm#
Пожелай мне удачи, пожелай мне удачи!

И есть чем платить, но я не хочу
Победы любой ценой.
Я никому не хочу ставить ногу на грудь.
Я хотел бы остаться с тобой,
Просто остаться с тобой,
Но высокая в небе звезда зовет меня в путь.

Группа крови - на рукаве,
Мой порядковый номер - на рукаве,
Пожелай мне удачи в бою, пожелай мне:
Не остаться в этой траве,
Не остаться в этой траве.
Пожелай мне удачи, пожелай мне удачи!


8. МАМА, МЫ ВСЕ СОШЛИ С УМА


Hm A
Зерна упали в землю, зерна просят дождя.
G
Им нужен дождь.
Hm
Разрежь мою грудь, посмотри мне внутрь,
A G
Ты увидишь, там все горит огнем.
Hm
Через день будет поздно, через час будет поздно,
A G
Через миг будет уже не встать.
Hm A G
Если к дверям не подходят ключи, вышиби двери плечом.

Fm#
Мама, мы все тяжело больны...
G Hm
Мама, я знаю, мы все сошли с ума...

Сталь между пальцев, сжатый кулак.
Удар выше кисти, терзающий плоть,
Но вместо крови в жилах застыл яд, медленный яд.
Разрушенный мир, разбитые лбы, разломанный надвое хлеб.
И вот кто-то плачет, а кто-то молчит,
А кто-то так рад, кто-то так рад...

Мама, мы все тяжело больны...
Мама, я знаю, мы все сошли с ума...

Ты должен быть сильным, ты должен уметь сказать:
Руки прочь, прочь от меня!
Ты должен быть сильным, иначе зачем тебе быть.
Что будет стоить тысячи слов,
Когда важна будет крепость руки?
И вот ты стоишь на берегу и думаешь: "Плыть или не плыть?"

Мама, мы все тяжело больны...
Мама, я знаю, мы все сошли с ума...

9. В НАШИХ ГЛАЗАХ

Introduction

|--0--0----------------------------2--2------------------------------------
|--0--0-------------1--0-----------1--1-----------7--5---------------------
|--2--0-------------3--2-----------2--2-----------5--3---------------------
|-------------------2--1-----------1--1-----------7--5-----0---------------
|-/Solo Guitar/-----3--2--------------------------5--3--------3---3-2------
|--------------------------------------------------------------------------
|
G|/Second Guitar or bass(which is better)/---------------------------------
D|------------------------------------------------0--------0---------------
A|---------------0--3--2-----------0--0-----2--3-----3--------3---3-2------
E|--0--0------3--------------------------------------------------------3-2-


Em
Постой, не уходи!
G
Мы ждали лета - пришла зима.
H7
Мы заходили в дома,
Em C H7
Но в домах шел снег.
Мы ждали завтрашний день,
Каждый день ждали завтрашний день.
Мы прячем глаза за шторами век.

Em
В наших глазах крики "Вперед!"
G A
В наших глазах окрики "Стой!"
Em
В наших глазах рождение дня
D C
И смерть огня.
В наших глазах звездная ночь,
В наших глазах потерянный рай,
В наших глазах закрытая дверь.
Что тебе нужно? Выбирай!

Мы хотели пить, не было воды.
Мы хотели света, не было звезды.
Мы выходили под дождь
И пили воду из луж.
Мы хотели песен, не было слов.
Мы хотели спать, не было снов.
Мы носили траур, оркестр играл туш...

В наших глазах крики "Вперед!"
В наших глазах окрики "Стой!"
В наших глазах рождение дня
И смерть огня.
В наших глазах звездная ночь,
В наших глазах потерянный рай,
В наших глазах закрытая дверь.
Что тебе нужно? Выбирай!


10. СПОКОЙНАЯ НОЧЬ


Вариант1:
Встyпление:

e|---------------------------------------------------------
h|---------------------------------------------------------
g|---------------------------------------------------------
d|------------------5--5----------------0-0-0-0------------
a|-0-0-0-3-3-3-3--3---3-3-3-3-2-2-2----------5-5-3-2-3-----
e|---------------------------------------------------------

Вариант2:
intro:

I------------------3----------------------------------------I
I------------------1----------------------------------------I
I------------------0----------------------------------------I
I--------------------------------------0-0-0-0-0--0---------I
I-0-0-0-3-3-3-3-3-----3-3-3-3-3--2-2-2---------------3-2-3--I
I-----------------------------------------------------------I



Куплет:

I------------------3-----------------------------5-----------I
I------------------1-----------------------------3-----------I
I------------------0-----------------------------2-----------I
I--------------------------------------0-0-0-0-0---0-0-0-0-0-I
I-0-0-0-3-3-3-3-3-----3-3-3-3-3--2-2-2-----------------------I
I------------------------------------------------------------I

I----------------------------------------3------3------------I
I----------------------------------------1-1------3----------I
I----------------------------------------0---0------2--------I
I-0--3--2-3-2---3--2-3-2-------------------------------------I
I-------------2----------0-0-0-3-3-3-3-3---------------------I
I------------------------------------------------------------I

Припев:

I----------------------------------3-------------------------I
I----------------------------------1-------------------------I
I----------------------------------0-------------------------I
I-3--3-3--2--2-2---------------------------------------------I
I-3--3-3--2--2-2--0-0-0-3-3-3-3-3----3-3-3-3-3---------------I
I-1--1-1--0--0-0---------------------------------------------I

Вступление перед третьим куплетом:

D I-------------------------------------------7--------------I
A I-x-x-7--x-x-7--x-x-7--x-7-7--x-x-5--x-x-5--5--5-3-2-3-----I
E I-x-x-5--x-x-5--x-x-5--x-5-5--x-x-3--x-x-3-----------------I

Соло:
_________ _______
I 1. I 2. I
I--------------------------------------------------------II-------II------I
I--------------------------------------------------------II-------II------I
I--------------------------------------------------------II-------II-2--2-I
I-----5-3-2------------5-----5---------------------------II-5-3-2-II---5--I
I---3------2-2-3-5-2-3-----3---3--5--2-2-3-5-5-3-2-2-3-5-II-------II------I
I-1----------------------1-------------------------------II-------II------I


Am G
Крыши домов дрожат под тяжестью дней,
Dm Am
Небесный пастух пасет облака,
Am G
Город стреляет в ночь дробью огней,
Dm Am
Но ночь сильней, ее власть велика.

F Em
Тем, кто ложится спать -
Am F C
Спокойного сна.
C Am
Спокойная ночь.
F Em
Тем, кто ложится спать -
Am F C
Спокойного сна.
C Am G Dm Am G Dm
Спокойная ночь.

Я ждал это время, и вот это время пришло,
Те, кто молчал, перестали молчать.
Те, кому нечего ждать, садятся в седло,
Их не догнать, уже не догнать.

Тем, кто ложится спать -
Спокойного сна.
Спокойная ночь.

Соседи приходят, им слышится стук копыт,
Мешают уснуть, тревожат их сон.
Те, кому нечего ждать, отправляются в путь
Те, кто спасен, те, кто спасен.

Тем, кто ложится спать -
Спокойного сна.
Спокойная ночь.
/F E Am F G Am/ - 4 раза.