На главную   Содержание   Следующая
 
 
Прислал: sheyh@imp.kiev.ua

Песня в память В. Цою "Да как по старой по дороге"
---------------------------------------------------------------------
Бой: такой же как в "Пачка сигарет" + сольный проигрыш (2 гитары)

Intro:

G|-----0--|-----0----|-----0----|
D|---4----|---5------|---7------|
A|-2------|-3--------|-5--------|

1 Куплет

G|-----0---------0--------0--------0----|
D|---4---4-----5---5----7---7----7---7--|
A|-2---------3--------5--------5--------| 2 раза

Em Am C D Dsus4
Да как по старой по д-о-ро-ге ш-е-л паренек
G|-----0-------------0-----------0-------------0-------|
D|---4---4------5-------5------7-----7----7---------7--|
A|-2---------3-------------5------------5--------------|


Лет двадцать шесть было ему на вид
Да уж к закату уклонялся то денек
Парень с ликом восточным молодым знаменитым

2 Куплет

Шел парнишка по дороге и не знал что впереди
Ожидает его смерть от железной руки
И дошедши до средины дороги той
Парень помер заставляя многих плакать за собой

3 Куплет

Вот так все редкие люди уходят не дойдя
О средины дороги и назад не воротясь
Вот так вот жил человек его смерть забрала
Он покинул поле брани не завершив свои дела

1 Куплет повторить

концовка без аккордов:

G|-----0---|-----0-----|-----0-----|-----0-----|
D|---4---4-|---5---5---|---7---7---|---7---7---|
A|-2-------|-3---------|-5---------|-5---------| 2 раза

G|-----0---|-----0-----|-----0-----|-----0-----|
D|---4-----|---5-------|---7-------|---4-------|
A|-2-------|-3---------|-5---------|-2---------|


Чёрные очки
------------------

Чёрные очки одеты на глаза,
Куртка с закатанными рукавами.
Руки в карманах знают: 'пора'!
Но мозг их вперёд не пускает.

Бой за жизнь,
Бой до победного конца.

Чувствуешь ты, что время пришло,
И знаешь, что надо быть первым.
Но куда-то твоё уменье ушло,
А может быть сдали нервы.

Бой за жизнь,
Бой до победного конца.

Кастеты и трубы в руках,
А ты совсем безоружен.
Удары и боль в глазах,
Ведь ты им живой не нужен.

Бой за жизнь,
Бой до победного конца.

Один за другим отходят они
С разбитыми головами.
Трубы им больше уже не нужны,
Уползают зализывать раны.

Бой за жизнь,
Бой до победного конца.

Чёрные очки с выбитым стеклом,
Пальцы с перебитыми костями.
Кровь по щеке струится ручьём,
Но домой ты уходишь ногами.

Бой за жизнь,
Бой до победного конца.


Автор неизвестен, песню прислал Dr.Kop kopaneva@mtu-net.ru

На пустом шоссе
------------------------

На пустом шоссе лежат цветы
На пустом шоссе лежат где ты прошел
След оставленный тобой горит огнем
Он горит и ночью и днем

Все что ты хотел сказать и спеть
Не успеть теперь уж, не успеть пропеть
Но остались те, кто слушал и внимал
В их сердцах ты не пропал

И гитару вновь ты подними
И как прежде снова прокричи
Жизнь пропета словно песня
Нам не спеть с тобою вместе
Помолчим ...
Снова ноту нужную найди
Снова струны бешено рвани
Все что было отгорело
И душа рассталась с телом
Бог прими ...

Ты хотел увидеть перемен
Что же получил при жизни ты взамен
Было право петь и сочинать
Это все никому не отнять

И гитару вновь ты подними
И как прежде снова прокричи
Жизнь пропета словно песня
Нам не спеть с тобою вместе
Помолчим ...
Снова ноту нужную найди
Снова струны бешено рвани
Все что было отгорело
И душа рассталась с телом
Бог прими ...